Burning Heart (Vandenberg) - слова песен, текст песни, исполнитель, автор песни
 

 

 
 
Отечественые: А  Б  В  Г  Д  Е  Є  Ж  З  И  І  Ї  Й  К  Л  М  Н  О  П  Р  С  Т  У  Ф  Х  Ц  Ч  Ш  Щ  Э  Ю  Я 
Зарубежные исполнители: A  B  C  D  E  F  G  H  I  J  K  L  M  N  O  P  Q  R  S  T  U  V  W  X  Y  Z 
    Интернет-магазин постеров и плакатов!
 

Vandenberg "Burning Heart"

"Date: Mon, 24 Jul 1995 10:01:49 -0400
From: kucera@nlm.nih.gov (Richard Kucera)
Subject: vandenbergburning_heart.tab

This Burning Heart or something like that...

by Vandenberg
tabbed by Rich Kucera

Note: The solo is missing a section, but it is mostly
complete. This song is a ballad, it is played
slowly, with beauty and feeling.

Xm == palm mute.
~ == very expressive vibrato involving a whole step
(use subtle vibrato throughout)
X == harmonic

(intro)

----------------------0----------------------------
--------3--------1---------------------------------
---------------------------------------------------
---24-----42-------------------------------------
---------------------------------------------------
---------------------------------------------------
repeat twice

-----------------------------------12-------7--5
--------3------5--3--1--14--1--0--12-------7--5
-----------------------------------12-------7--5
---24-----4---5--4--2--24--2--0--12-------------
-----------------------------------12-------------
-----------------------------------12-------------

does it feel the same...


(solo)

---------------------------------------------------
---------------------------------------------------
---------------------------------------------------
---------------7m--9m--10---9h10p9p7---------------
-----7-8----8m------------------------8------7-----
-----------------------------------------10--------

---------------------------------------------------
---------------------------------------------------
---------------------------------------------------
---------7m---9--10---10h12p10--7---------------
-----7m-------------------------------7--5--------
---------------------------------------------------

---------------------------------------------------
---------------------------------------------------
---------------------------------------------------
---------------------------------------------------
-----------------7----h10---------757------------
-------8--h10-------------------------------------

---------------------------------------------------
---------------------------------------------------
---------------------------------------------------
-----------------------------------7m--9-----------
------7--8m--7m-------7m--8m--10m------------------
-----------------10m-------------------------------

---------------------------------------------------
------------------------------------------8--10----
------------------------9--7--10-9--7--0--------9~~
----------10--9--7---------------------------------
--------------------7------------------------------
---------------------------------------------------

---------------------------------------------------
---------------------------------------------------
------9--10--12--12~~~--p10p9----0---5b7-----------
---------------------------------------------------
---------------------------------------------------
---------------------------------------------------

---------------------------------------------------
---------------------------------------------------
-----5--p4--h7-------5---------5--p4--h5--h7-p5-h7-
-----------------5----------5----------------------
-------------------------7-------------------------
---------------------------------------------------

------------8--10--p8--------8----8--10--8--10-12-
---------8--------------12-----12------------------
----79--------------------------------------------
---------------------------------------------------
---------------------------------------------------
---------------------------------------------------

here's the bit that's missing, I've substituted
a phrase for it, I tried to make something fit,
I have only a vague idea of what the changes are,
so this may or may not be a good match.
It is not all played at the same pace, for instance,
I kind of pause right here, after the D.
------------------------------------------------------
--15b17b15p13-----------------------------------12-13-
---------------16--p12-----------------------12-------
-----------------------12-----------------12----------
--------------------------1514-14~---15-------------
------------------------------------------------------

now back to the real solo, the finale, pause for
a beat or two before launching into this. It's
all a walking pace legato, then cry at the end:
-----------------17--------------20--19--17--------
-----17--18--20------20--18--17--------------20--18
--0------------------------------------------------
---------------------------------------------------
---------------------------------------------------
---------------------------------------------------

---------------------------------------------------
-17--18--20------17--18------------------20--18--17
-------------19----------16--17--19--0-------------
---------------------------------------------------
---------------------------------------------------
---------------------------------------------------

--20--19--20~-------22b24--22--20h22p20~-----------
---------------------------------------------------
---------------------------------------------------
---------------------------------------------------
---------------------------------------------------
---------------------------------------------------

this burning heart of mine..."
 






 



Партнерам:
Каталог музыкальных сайтов // добавить сайт

По вопросам сотрудничества:

+38 (044) 229-62-24 | ICQ 344-165-662