Crawl Toina (Tourniquet) - слова песен, текст песни, исполнитель, автор песни
 

 

 
 
Отечественые: А  Б  В  Г  Д  Е  Є  Ж  З  И  І  Ї  Й  К  Л  М  Н  О  П  Р  С  Т  У  Ф  Х  Ц  Ч  Ш  Щ  Э  Ю  Я 
Зарубежные исполнители: A  B  C  D  E  F  G  H  I  J  K  L  M  N  O  P  Q  R  S  T  U  V  W  X  Y  Z 
    Интернет-магазин постеров и плакатов!
 

Tourniquet "Crawl Toina"

"

Date: Tue, 7 Apr 1998 23:54:41 -0500
From: Keith Kraemer
Subject: ttourniquetcrawl_to_china.tab


Crawl to China
Tourniquet
Crawl to China
1997

Tune to Eb
=Harmonic
bend up
x=muted strings (left hand)

Offspring-like drum intro with crazy guitar and then
Riff 1 x5
---------------|-----------------|
---------------|-----------------|
---()---------|-----------------|
--2-5-59-9-9--|--92-2-2--2--8--|
--2-5-59-9-9--|--92-2-2--2--8--|
--0-3-37-7-7--|--7
Is God asking you to crawl to China
or just to cross the street
To trudge through the desert through Arabian heat
Or to accomplish the imossible a Herculean feat
Or maybe just training bad thoughts obsolete

Hold this while he plays the drum part again
-----------|
-----------|
-----------|
-----2-----|
-----2-----|
-----0-----|

Riff 1 x6
---------------|-----------------|
---------------|-----------------|
---()---------|-----------------|
--2-5-59-9-9--|--92-2-2--2--8--|
--2-5-59-9-9--|--92-2-2--2--8--|
--0-3-37-7-7--|--7
Is this the concentration camps at Dakau
Is it Joan of Arc revisited
Niagra falls in a barrel
Or to mend a broken relationship instead

Riff 2 x3
-----------------|
-----------------|
-----------------|
--2---5---^---9--|
--2---5---7---9--|
--0---3-------7--|
Crawl to China
Riff 1 x6
---------------|-----------------|
---------------|-----------------|
---()---------|-----------------|
--2-5-59-9-9--|--92-2-2--2--8--|
--2-5-59-9-9--|--92-2-2--2--8--|
--0-3-37-7-7--|--7
He is faithful; it remains in his hands

From the cold barren Arctic to the warstricken lands From the place in
your heart where (something) is told(?) To the lairs of the demons where
deceptions are told Is God asking you to crawl to China Or just to cross
to the street?

Riff 2 x3 Riff 3 x7
-----------------| |-------------------|
-----------------| |-------------------|
-----------------| |-------------------|
--2---5---^---9--| |--2-2---2--2-2--2--|
--2---5---7---9--| |--2-2---2--2-2--2--|
--0---3-------7--| |--0-0---0--0-0--0--|
Crawl to China

On this part Aaron uses some crazy weird guitar stuff so I can't really
match the sound, or even tell if the notes are right. So this is my best
shot.

Riff 4 x3
---------------|--------------|----------------------|
---------------|--------------|----------------------|
---------------|--------------|----------------------|
--2--89-89---|--89-89--2--|--89-89---89---7--|
--2--67-67---|--67-67--2--|--67-67---67-------|
--0------------|-----------0--|----------------------|

---------------|--------------|----------------------------|
---------------|--------------|----------------------------|
---------------|--------------|----------------------------|
--2--89-89---|--89-89--2--|--89-89------------9-8-7--|
--2--67-67---|--67-67--2--|--67-67---67--10---------|
--0------------|-----------0--|----------------------------|

Riff 1 x6
---------------|-----------------|
---------------|-----------------|
---()---------|-----------------|
--2-5-59-9-9--|--92-2-2--2--8--|
--2-5-59-9-9--|--92-2-2--2--8--|
--0-3-37-7-7--|--7
Is emotional rigor mortis freezing your step
You won't be going far at all
You feel pretty safe but the danger is real
You won't grow until you face the fear that you feel
Riff 2 x6
-----------------|
-----------------|
-----------------|
--2---5---^---9--|
--2---5---7---9--|
--0---3-------7--|
Crawl to China
Drum part again
Riff 5
----------------------|----------------------|
----------------------|----------------------|
----------------------|----------------------|
--2--x-x-x-x--2-2--2--|--2--x-x-x-x--2-2--2--|
--2--x-x-x-x--2-2--2--|--2--x-x-x-x--2-2--2--|
--0--x-x-x-x--0-0--0--|--0--x-x-x-x--0-0--0--|

-------------------------|-------------------------|
-------------------------|-------------------------|
-------------------------|-------------------------|
--2-2------------2-2--2--|--2-2------------2-2--2--|
--2-2--------2-2--2--|--2-2--------2-2--2--|
--0-0--------0-0--0--|--0-0--------0-0--0--|

Note= on the part you play the rythm with the x's but make it an up
and down slide.

Riff 3 x3
-------------------|
-------------------|
-------------------|
--2-2---2--2-2--2--|
--2-2---2--2-2--2--|
--0-0---0--0-0--0--|

Ending
--------------------------|--------------------------|
--------------------------|--------------------------|
--------------------------|--------------------------|
--2-2-2-----------2-2--2--|--2-2-2-----------2-2--2--|x1.5
--2-2-2-------2-2--2--|--2-2-2-------2-2--2--|
--0-0-0-------0-0--0--|--0-0-0-------0-0--0--|

------------------|------------------------------|
------------------|------------------------------|
------------------|------------------------------|
--2-2--2--2-2--2--|--2-2-2-2---------2--2---2----|
--2-2--2--2-2--2--|--2-2-2-2---------2--2---2----|
--0-0--0--0-0--0--|--0-0-0-0---10---0--0---0----|

------------------------------|-----------------|
------------------------------|-----------------|
------------------------------|-----------------|
--2-2-2-2---------2--2---2----|--2-2--2--2-2-2--|
--2-2-2-2---------2--2---2----|--2-2--2--2-2-2--|
--0-0-0-0---10---0--0---0----|--0-0--0--0-0-0--|


http:www.geocities.comsunsetstrippalms8550index.html Comments or
corrections to [conorlarkin@hotmail.com]

Irish Joe James Donnelly"
 






 



Партнерам:
Каталог музыкальных сайтов // добавить сайт

По вопросам сотрудничества:

+38 (044) 229-62-24 | ICQ 344-165-662

Warning: error_log(../logs_pesni/log) [function.error-log]: failed to open stream: Permission denied in /home/iximobile/domains/pesni.kiev.ua/libs/utils.php on line 13