Bearing Gruesome Cargo (Tourniquet) - слова песен, текст песни, исполнитель, автор песни
 

 

 
 
Отечественые: А  Б  В  Г  Д  Е  Є  Ж  З  И  І  Ї  Й  К  Л  М  Н  О  П  Р  С  Т  У  Ф  Х  Ц  Ч  Ш  Щ  Э  Ю  Я 
Зарубежные исполнители: A  B  C  D  E  F  G  H  I  J  K  L  M  N  O  P  Q  R  S  T  U  V  W  X  Y  Z 
    Интернет-магазин постеров и плакатов!
 

Tourniquet "Bearing Gruesome Cargo"

"
#


Song: Bearing Gresome Cargo
By: Ted Kirkpatrick
(c)1994 Broken Songs Biomedical Music

tabbed by: Kevin Usher
Sept: 1995

RIFF A)

--------------------------------|--------------------------------|
-5-3----------------------------|-5-3----------------------------|
-----4-3-2-0-----2----3----4----|-----4-3-2-0-----2----4---------|
--------------------------------|---------------------------2----|
--------------------------------|--------------------------------|
--------------------------------|--------------------------------|

--------------------------------|--------------------------------|
-5-3-------------3----2----1----|-5-3----------------------------|
-----4-3-2-0--------------------|-----4-3-2-0-----4----3---------|
--------------------------------|---------------------------2----|
--------------------------------|---------------------------2----|
--------------------------------|---------------------------0----|


RIFF B)

--------------------------------|--------------------------------|
----------5---------------------|----------5---------------------|
------2-4--------2----3----4----|------2-4--------2----4---------|
-2------------------------------|-2-------------------------2----|
--------------------------------|--------------------------------|
--------------------------------|--------------------------------|

--------------------------------|--------------------------------|
----------5------3----2----1----|----------5---------------------|
------2-4-----------------------|------2-4--------5----4---------|
-2------------------------------|-2-------------------------2----|
--------------------------------|---------------------------2----|
--------------------------------|---------------------------0----|


RIFF C)

---------3----------------------|---------3----------------------|
-----3-5---5--------------------|-----3-5---5--------------------|
-3-4----------------------------|-3-4---------3----2---2---------|
-------------------2-2-----2-2--|-------------------------5--2---|
-------------------2-2-----2-2--|--------------------------------|
-------------------0-0-----0-0--|--------------------------------|


RIFF D)

--------------------------------|
--------------------------------|
--------------------------------|
-------5------------------------|
-5--7-----7---------------------|
--------------0-3-0-5-0-6-0-7-0-|



RIFF E)

-------3------------------------|
-3--5-----5---------------------|
--------------------------------| X 4
--------------------------------|
--------------------------------|
--------------------------------|

--------------------------------|
--------------------------------|
--------------------------------| X 4
-------5------------------------|
-5--7-----7---------------------|
--------------------------------|

--------------------------------|
--------------------------------| X 4
-------7------------------------|
-7--9-----9---------------------|
--------------------------------|
--------------------------------|


RIFF F)

-----------------3--------------|--------------------------------|
-----2---4-----------0---4------|-----2---4-----------2---4------|
-2-----------2---------------2--|-2-----------2---5-----------2--|
--------------------------------|--------------------------------|
--------------------------------|--------------------------------|
--------------------------------|--------------------------------|



SOLO

-5^65----5-3---5-3-------------|---7-5--7-5------------3--------|
------------------------5-------|---------------3-5-----3--------|
--------------------------------|--------------------------------|
--------------------------------|--------------------------------|
--------------------------------|--------------------------------|
--------------------------------|--------------------------------|

-11^-10---10--------------------|-12-----------------------------|
-----------11^-10^10------------|--12---12-----------------------|
--------------------------------|---11---11---12-----------------|
--------------------------------|---------10---11--12------------|
--------------------------------|---------------9---11----------9|
--------------------------------|--------------------1012-6^6---|


SONG ORDER:

RIFF A) X 3

RIFF B) X 5

RIFF C) X 4

RIFF B) X 2

RIFF A) X 2

RIFF D) X 12 gtr 2 -- RIFF E) gtr1

RIFF C) X 1

RIFF D) X 9 gtr 2 -- (gtr 1 solo)

RIFF B) X 4

RIFF F) X 2

RIFF D) X 8

end on E chord"
 






 



Партнерам:
Каталог музыкальных сайтов // добавить сайт

По вопросам сотрудничества:

+38 (044) 229-62-24 | ICQ 344-165-662

Warning: error_log(../logs_pesni/log) [function.error-log]: failed to open stream: Permission denied in /home/iximobile/domains/pesni.kiev.ua/libs/utils.php on line 13