Thisarming Man (Smiths) - слова песен, текст песни, исполнитель, автор песни
 

 

 
 
Отечественые: А  Б  В  Г  Д  Е  Є  Ж  З  И  І  Ї  Й  К  Л  М  Н  О  П  Р  С  Т  У  Ф  Х  Ц  Ч  Ш  Щ  Э  Ю  Я 
Зарубежные исполнители: A  B  C  D  E  F  G  H  I  J  K  L  M  N  O  P  Q  R  S  T  U  V  W  X  Y  Z 
    Интернет-магазин постеров и плакатов!
 

Smiths "Thisarming Man"

"From: jdlantos@world.std.com (Jim D Lantos)

This Charming Man (Hatful Version) by Johnny Marr

A.

-9--9---7-7--10--9---7--7-slide---9----12-12------9--------------
-10-10--9-9--10--10--9--9-slide--10-10----------9----12----------
------------------------------------11--------9------------------
-----------------------------------------------------------------
-----------------------------------------------------------------

B.

------------9------------------------------------------------
------10------------10-12-------10----10-slide-12----12------
11-11----11---11-11-------11-11----11-11-------13--13---13---
-------------------------------------------------------------
-------------------------------------------------------------

C.

-------------------------------------------------------
---5---------5-----5----12-12--10-10-slide-12-12-------
-6-----6-6-----6-6------13-13--1--11-------13-13-------
-----7-----7---------7---------------------------------
-------------------------------------------------------

D.

-----------------------------9---------9--------------(1)-----(12)---------
-------10---------9-------10---10--------9--------10--or-----9-or--[F#m]---
----11----11----9---9--11------------9---------11-----11---9---9--[strum]--
-12----------11--------------------9--------12-----------11-------[bar-8th]
---------------------------------------------------------------------------
---------------------------------------------------------------------------

E.
-----7--slide--9---9--9--7--7--10--9--7--7-slide-9------12--12--------
-----9--slide--10--10-10-9-9---10--10-9--9-slide-10--10---------------
-----------------------------------------------------11---------------
----------------------------------------------------------------------
----------------------------------------------------------------------

The sequence goes like this

ABBCEBCBCBCBCBCBDDCBCBCBCCDDD (roughly..you'll get the drift)

Walking Andy Rourke bass goes like this:

A1. A2. (A1 + A2 = A)

------------------------------------------------------------------------------
------2-2--------------------4-6----------------------------------------------
-----------2-4-2-------2-2-2--------------------4-6---------------4-2---------
-0-0-0-----------0-0-0------------2-2-2--2-2--2------5-5-5-4-4--4-------------
------------------------------------------------------------------------------

B.

-----------------------------------------------------------------------
-----------------------------------------------------------------------
-------------------------------------------------9---------------------
--0-------2-4-6-4------------------0-------2-4-6---4--444-2-4-4-4-4-2--
----4-2-0-----------------2-4-5-2----4-3-0-----------------------------
------------------2-4-5-4----------------------------------------------


A A2 A A A A A B B A A A B B B (slight variation at end)"
 






 



Партнерам:
Каталог музыкальных сайтов // добавить сайт

По вопросам сотрудничества:

+38 (044) 229-62-24 | ICQ 344-165-662