Some Girls Are Bigger Than Others (Smiths) - слова песен, текст песни, исполнитель, автор песни
 

 

 
 
Отечественые: А  Б  В  Г  Д  Е  Є  Ж  З  И  І  Ї  Й  К  Л  М  Н  О  П  Р  С  Т  У  Ф  Х  Ц  Ч  Ш  Щ  Э  Ю  Я 
Зарубежные исполнители: A  B  C  D  E  F  G  H  I  J  K  L  M  N  O  P  Q  R  S  T  U  V  W  X  Y  Z 
    Интернет-магазин постеров и плакатов!
 

Smiths "Some Girls Are Bigger Than Others"

"From: jdlantos@world.std.com (Jim D Lantos)

Some Girls Are Bigger Than Others By Johnny Marr The Smiths

comments: jdlantos@world.std.com


(Capoed on the 4th fret for Queen is Dead
or 6th fret for a Brixton concert version, I believe)

(plucked in a very rapid banjoish sort of way with
liberal use of a digital delay)

A.

(C form)
-------------------------------------------------------------0--------
----1-------------1-----------0--1-------0-1-0-----0-1-0------0-------
-------0-------------0--0^2--------------------0^2-------0-0---0------
--2--2---2--2^0-0--0--0-----2--2---2^0-0----------2-2-------2---------
-0--------------------------------------------------------------------

B.

C F G
----0-------------------------------------------------------
------1^0-------1-------3---------------------------------------
----------0-------2-------4-----------------------------------
--0---------2^3-----3^5-----5------------------------------------
-----------------------------------------------------------


[[A B A B A B B B (play C)] x 3] B ...variation on B until fade



For anyone interested, I read somewhere that the extra lyrics to
the Brixton concert go something like:

On the shop floor
there's a calender
as obvious as snow
...as if we didn't know"
 






 



Партнерам:
Каталог музыкальных сайтов // добавить сайт

По вопросам сотрудничества:

+38 (044) 229-62-24 | ICQ 344-165-662