Accept Yourself (Smiths) - слова песен, текст песни, исполнитель, автор песни
 

 

 
 
Отечественые: А  Б  В  Г  Д  Е  Є  Ж  З  И  І  Ї  Й  К  Л  М  Н  О  П  Р  С  Т  У  Ф  Х  Ц  Ч  Ш  Щ  Э  Ю  Я 
Зарубежные исполнители: A  B  C  D  E  F  G  H  I  J  K  L  M  N  O  P  Q  R  S  T  U  V  W  X  Y  Z 
    Интернет-магазин постеров и плакатов!
 

Smiths "Accept Yourself"

"From: babjak@ecf.toronto.edu (BABJAK JAMIESON)

Accept Yourself - The Smiths
(MarrMorrissey)

tabbed by Adam Schaffer 010995 with the help of Wintab 1.0

Hatful of Hollow version. Capo on 3rd fret or tune up 3
semitones & translate the tabs. All tabs marked 3 are open
strings. Use your thumb for the notes on the low E string for
chords marked with T's.


Intro:
|--8--8--8--8--8-----------------|
|--8--8--10-11-10-8--8--8--6--6--|
|--9--9--9--9--9--8--8--8--7--7--|
|--10-10-10-10-10----------------|
|--------------------------------|
|--------------------------------|

|--8--8--8--8--8-----------3--3--|
|--8--11-10-8--8--8--8--8--6--6--|
|--9--9--9--9--10-8--8--8--7--7--|
|--10-10-10-10-10----------------|
|--------------------------------|
|--------------------------------|


Everyday, You must say
C Em
|--8--------3-----7--------------|
|--8-----------3--8-----------8--|
|--9-----9--------9--9-----------|
|--10-10----------9--------9-----|
|--10-------------7-----7--------|
|--------------------------------|


(2nd time 'round)
|
|
C7
|--8-----------------3---8--8----3--3--3--8--8--8--|
|--11----------------4---6--6----4--4--4--6--6--6--|
|--9-----------9--3--5---7--7----5--5--5--7--7--7--|
|--8-----8-----------6---8--8----6--6--6--8--8--8--|
|--10-10----10-------6---x--x----6--6--6--x--x--x--|
|--8-----------------4---6--6----4--4--4--6--6--6--|
T T T T T T T T T


I am sick and I am dull and I am plain
|----------------3------------------3--------|
|-------5-----6-----3------3-----5----(3)----|
|----------5------------------5--------------|
|--(3)---------------------------------------|
|----------------------(3)-------------------|
|--------------------------------------------|

|----------------------------------------|
|-------3--------3-----5--5-----5--3-----|
|----------5--------5--5-----------------|
|--(7)--------7--------3-----3-----------|
|----------------------------------------|
|----------------------------------------|


interlude:
C C
|--------------------------------------------|
|--------------------------------------------|
|--5--5-----------------5--5-----------------|
|--5--5-----------------5--5--5--------------|
|--3--3-----------5-----3--3--5--------5-----|
|--------6~~~--6-----6--------3--3--6--------|

|-----------------------------------|
|-----------------------------------|
|--5--5-----------------5--5--------|
|--5--5-----------------5--5--5-----|
|--3--3-----------5-----3--3--5-----|
|--------6~~~--6-----6--------3-----|


and there's no one but yourself to blame...
|-------3-------------------3-------|
|-------6-------------------6_sl_8--|
|-------5-------------------5_sl_7--|
|---(3)-3---------------------------|
|-----------------------------------|
|-----------------------------------|


ending:
|--3--3--3--8--8--8--6--|
|--4--4--4--6--6--6--4--|
|--5--5--5--7--7--7--3--|
|--6--6--6--8--8--8--6--|
|--6--6--6--x--x--x--3--|
|--4--4--4--6--6--6--4--|
T T T T T T T


Have an enjoyable party, especially if you live in a warm, sunny
place like Australia, for instance...hope to tab more, often.

Adam"
 






 



Партнерам:
Каталог музыкальных сайтов // добавить сайт

По вопросам сотрудничества:

+38 (044) 229-62-24 | ICQ 344-165-662