Between Angels And Insects (Papa Roach) - слова песен, текст песни, исполнитель, автор песни
 

 

 
 
Отечественые: А  Б  В  Г  Д  Е  Є  Ж  З  И  І  Ї  Й  К  Л  М  Н  О  П  Р  С  Т  У  Ф  Х  Ц  Ч  Ш  Щ  Э  Ю  Я 
Зарубежные исполнители: A  B  C  D  E  F  G  H  I  J  K  L  M  N  O  P  Q  R  S  T  U  V  W  X  Y  Z 
    Интернет-магазин постеров и плакатов!
 

Papa Roach "Between Angels And Insects"

"Для начала нужно перестроить гитару на ре-настройку, т.е. шестая струна, прижатая на 12 ладу должна звучать в унисон с четвёртой открытой.
Таким макаром квинты зажимаются одним пальцем.





Intro:

e|---------------------------------------------------------------------------------------------|

B|---------------------------------------------------------------------------------------------|

G|---------------------------------------------------------------------------------------------|

d|---------------------------------------------------------------------------------------------|

A|----8---7---10---8-7h8----8---7---10---8-7h8----8---7---10---8-7h8-----8----7----10----8-7h8-|

D|-0----0---0----0-------8----8---8----8-------7----7---7----7-------10----10---10----10-------|



|---------------------------------------------------------------------------------------------|

|---------------------------------------------------------------------------------------------|

|---------------------------------------------------------------------------------------------|

|---------------------------------------------------------------------------------------------|

|----8---7---10---8-7h8----8---7---10---8-7h8----8---7---10---8-7h8-----8----7----10----8-7h8-|

|-0----0---0----0-------8----8---8----8-------7----7---7----7-------10----10---10----10-------|

There's no money, there's no position, only absession, i don't need that shit



|--------------------------------------|

|--------------------------------------|

|--------------------------------------|

|--------------------------------------|

|----8---7---10---8-----8---7---10---8-|

|-0-------------------0----------------|

Take my money...



D5 C5 D5 C5

|-------------------------------------------------------------------|

|-------------------------------------------------------------------|

|-------------------------------------------------------------------|

|-0-0-0-0-0-0-10-10-10-10-10-10-10-0-0-0-0-0-0-10-10-10-10-10-10-10-|

|-0-0-0-0-0-0-10-10-10-10-10-10-10-0-0-0-0-0-0-10-10-10-10-10-10-10-|

|-0-0-0-0-0-0-10-10-10-10-10-10-10-0-0-0-0-0-0-10-10-10-10-10-10-10-|



A5 C5 A5 C5

|-------------------------------------------------------------------|

|-------------------------------------------------------------------|

|-------------------------------------------------------------------|

|-7-7-7-7-7-7-10-10-10-10-10-10-10-7-7-7-7-7-7-10-10-10-10-10-10-10-|

|-7-7-7-7-7-7-10-10-10-10-10-10-10-7-7-7-7-7-7-10-10-10-10-10-10-10-|

|-7-7-7-7-7-7-10-10-10-10-10-10-10-7-7-7-7-7-7-10-10-10-10-10-10-10-|



D5 C5 D5 C5

|-------------------------------------------------------------------|

|-------------------------------------------------------------------|

|-------------------------------------------------------------------|

|-0-0-0-0-0-0-10-10-10-10-10-10-10-0-0-0-0-0-0-10-10-10-10-10-10-10-|

|-0-0-0-0-0-0-10-10-10-10-10-10-10-0-0-0-0-0-0-10-10-10-10-10-10-10-|

|-0-0-0-0-0-0-10-10-10-10-10-10-10-0-0-0-0-0-0-10-10-10-10-10-10-10-|



A5 A#5 F5 G5

|-----------------------------------------------------|

|-----------------------------------------------------|

|-----------------------------------------------------|

|-7-7-7-7-7-7-8-8-8-8-8-8-8-3-3-3-3-3-3-5-5-5-5-5-5-5-|

|-7-7-7-7-7-7-8-8-8-8-8-8-8-3-3-3-3-3-3-5-5-5-5-5-5-5-|

|-7-7-7-7-7-7-8-8-8-8-8-8-8-3-3-3-3-3-3-5-5-5-5-5-5-5-|







Riff A:

|---------------------------------------------------------------|

|---------------------------------------------------------------|

|---------------------------------------------------------------|

|---------------------------------------------------------------|

|-----------7-8-10-10-10-10-10-8-----------7-8-10-10-10-10-10-8-|

|-0-0-0-0-0----------------------8-8-8-8-8----------------------|



|--------------------------------------------------------------------|

|--------------------------------------------------------------------|

|--------------------------------------------------------------------|

|--------------------------------------------------------------------|

|-----------7-8-10-10-10-10-10-8----------------7-8-10-10-10-10-10-8-|

|-7-7-7-7-7----------------------10-10-10-10-10----------------------|





Riff B:

D5 C5 D5 C5

|-------------------------------------------------------------------|

|-------------------------------------------------------------------|

|-------------------------------------------------------------------|

|-0-0-0-0-0-0-10-10-10-10-10-10-10-0-0-0-0-0-0-10-10-10-10-10-10-10-|

|-0-0-0-0-0-0-10-10-10-10-10-10-10-0-0-0-0-0-0-10-10-10-10-10-10-10-|

|-0-0-0-0-0-0-10-10-10-10-10-10-10-0-0-0-0-0-0-10-10-10-10-10-10-10-|

There's no money...



A5 C5 A5 C5

|-------------------------------------------------------------------|

|-------------------------------------------------------------------|

|-------------------------------------------------------------------|

|-7-7-7-7-7-7-10-10-10-10-10-10-10-7-7-7-7-7-7-10-10-10-10-10-10-10-|

|-7-7-7-7-7-7-10-10-10-10-10-10-10-7-7-7-7-7-7-10-10-10-10-10-10-10-|

|-7-7-7-7-7-7-10-10-10-10-10-10-10-7-7-7-7-7-7-10-10-10-10-10-10-10-|





Riff C:

|----------------------------------------------|

|----------------------------------------------|

|----------------------------------------------|

|-0----------8----------7----------10----------|

|-0----------8----------7----------10----------|

|-0----------8----------7----------10----------|

Money, position, absession



|---------------------------------------------------------------------------------------------|

|---------------------------------------------------------------------------------------------|

|---------------------------------------------------------------------------------------------|

|---------------------------------------------------------------------------------------------|

|----8---7---10---8-7h8----8---7---10---8-7h8----8---7---10---8-7h8-----8----7----10----8-7h8-|

|-0---------------------8---------------------7---------------------10------------------------|



|---------------------------------------------------------------------------------------------|

|---------------------------------------------------------------------------------------------|

|---------------------------------------------------------------------------------------------|

|---------------------------------------------------------------------------------------------|

|----8---7---10---8-7h8----8---7---10---8-7h8----8---7---10---8-7h8-----8----7----10----8-7h8-|

|-0---------------------8---------------------7---------------------10------------------------|

Present yourself...



|---------------------------------------------------------------------------------------------|

|---------------------------------------------------------------------------------------------|

|---------------------------------------------------------------------------------------------|

|-------------------------------------------------------------------------------------------0-|

|----8---7---10---8-7h8----8---7---10---8-7h8----8---7---10---8-7h8-----8----7----10----8---0-|

|-0---------------------8---------------------7---------------------10----------------------0-|





Closing:

|-----------------------| 4

|-----------------------| t

|-----------------------| i

|-----------------------| m

|----8---7---10---8-7h8-| e

|-0---------------------| s"
 

Фото альбомов - Papa Roach

Фото альбома Papa Roach. Infest Фото альбома Papa Roach. Infest Фото альбома Papa Roach. Lovehatetragedy
 






 



Партнерам:
Каталог музыкальных сайтов // добавить сайт

По вопросам сотрудничества:

+38 (044) 229-62-24 | ICQ 344-165-662