Desperado (Eagles) - слова песен, текст песни, исполнитель, автор песни
 

 

 
 
Отечественые: А  Б  В  Г  Д  Е  Є  Ж  З  И  І  Ї  Й  К  Л  М  Н  О  П  Р  С  Т  У  Ф  Х  Ц  Ч  Ш  Щ  Э  Ю  Я 
Зарубежные исполнители: A  B  C  D  E  F  G  H  I  J  K  L  M  N  O  P  Q  R  S  T  U  V  W  X  Y  Z 
    Интернет-магазин постеров и плакатов!
 

Eagles "Desperado"

"From: tgannon@charlie.usd.edu (spideir)
Subject: Desperado (Organ part)

DESPERADO (Henley & Frey, 1973)--Organ Part
=========

-- guitar arrangement: tcg, 289
--44 Key of G Andante (pretty slow)
--use vibrato andor wave effex box to mimic organ sound
--note durations: s=sixteenth note; e=eighth; q=quarter; q.=dotted quarter;
h=half; w=whole; [e]=eighth rest . . .
w----- Andante (pretty slow)
--use vibrato andor wave effex box to mimic organ sound
--note durations: s=sixteenth note; e=eighth; q=quarter; q.=dotted quarter;
h=half; w=whole; [e]=eighth rest . . .
w-----h =tied notes . . . x(ferm): fermata (hold longer than x)
--!x!=play harmonic
--since only the highest four strings are played in this melody chord
arrangement, the low e & a strings are omitted in the actual tab
--chords are named according to voicings shown here; NOT rhythm-chord
designations, necessarily (though do harmonize with book chords)
--some way-up-the-fingerboard chords have been reduced to two notes
rather than three to ease fingering on a small (my!) fretboard
--Organ part begins with first B section (Don't you draw the queen of
diamonds....)

B1:
Em Bm C G GM9 Em C G (D7)
e||----7-----7-----|----8-----7---5---|----3------3------|-3--5--7-10-12-14-|
b||----8-----7-----|----8-----8---7---|----5------5------|-3----------------|
g||----9-----7-----|----9-----7---7---|----4------5------|-4--5--7-11-12-14-|
d||----------------|------------------|------------------|------------------|
h h h q q h h q. e e e e e

Em Bm7 C G Em (A9) (Am9) D D9
|----15-----17-----|----15-----15-----|----!12!----------|--!12!---10---8--||
|----17-----15-----|----17-----15-----|----!12!----------|--!12!---10--10--||
|----16-----16-----|----17-----16--14-|----!12!----------|--!12!---11---9--||
|------------------|------------------|------------------|-----------------||
h h h q. e w--------------- D9
|----15-----17-----|----15-----15-----|----!12!----------|--!12!---10---8--||
|----17-----15-----|----17-----15-----|----!12!----------|--!12!---10--10--||
|----16-----16-----|----17-----16--14-|----!12!----------|--!12!---11---9--||
|------------------|------------------|------------------|-----------------||
h h h q. e w---------------h q. e

A2:
G G9 C G D Em A7 D
|----7------5------|----8-------------|---7---10---12----|---12----10-------|
|----8------6------|----8-------------|---8---10---12----|---10----10-12-10-|
|----7------7------|----9-------------|---7---11---12----|---12-----9-------|
|------------------|----------12--10--|------------------|------------------|
h h w------q---q-- q q h h h--e--e-

G G9 C G D7b9 Em A7 D7 G D D7
|---7----5-----|---3-------5--|--7--5---3----|---3---5---|--3--15--14--17--||
|---8----6-----|---5----------|--8--7---5----|---5---3---|--3--15--15--15--||
|---7----7-----|---5----------|--7--8---4----|---6---5---|--4--16--14--17--||
|--------------|--------------|--------------|-----------|-----------------||
h h w-------e-- q q h 24:q q q q q q

B2:
Em Bm7 C G GM9 Em C (G) (D)
|----19-----17-----|---20----19--17---|--15----12---15---|---12-10-8-7-8-5-7|
|----20-----19-----|---20----20--19---|--17----13---17---|------------------|
|------------------|------------------|--16----12---17---|---12-11-9-7-9-5-7|
|------------------|------------------|------------------|------------------|
h h h q q h q q [e] e e e e e e e

Em Bm7 C G Am D D9
|----19-----17-----|---15------7------|-------8----------|----8----10---8--||
|----20-----19-----|---17------8------|------10----------|---10----10--10--||
|------------------|---17------7------|-------9----------|----9----11---9--||
|------------------|------------------|------------------|-----------------||
h h h h w------------- D9
|----19-----17-----|---15------7------|-------8----------|----8----10---8--||
|----20-----19-----|---17------8------|------10----------|---10----10--10--||
|------------------|---17------7------|-------9----------|----9----11---9--||
|------------------|------------------|------------------|-----------------||
h h h h w-------------h q q

A3 (&Coda):
G G9 C Cm6 G D Em(Esus4) A9 D7
|--7--5-7---5------|----3------5------|---7---5---3---5--|-----7-----5------|
|--8--------6------|----5------4------|---8---7---5------|-----5-----7------|
|--7--------7------|----5------5------|---7---7---4------|-----6-----5------|
|------------------|------------------|------------------|------------------|
h--e-e-- h h h q q h---q-- h h

G G11 C Cm6 G D7 Em C G Am
|---3--15----15----|---15-----17----|-15--14--12-15-15p12|-15-15--15--17----|
|---3--15----13----|---17-----16----|-15--13--12-17------|-17-17--15--17----|
|---4--16----14----|---17-----17----|-16--14--12-16------|-17-17--16--17----|
|------------------|----------------|--------------------|------------------|
q q h h h q q q e s s e e q h

G D7b9 Em Am7 G [G7] C Cm6 G
|--19--17--15----|-----15-------|-----15-------|---12---17----|---10-------||
|--20--19--17----|-----13-------|-----15-------|---13---16----|---12-------||
|------20--16----|-----14-------|-----16-------|---12---17----|---12-------||
|----------------|--------------|--------------|--------------|------------||
q q h(ferm) w w ritard. h h w(ferm)


======================================================
| Thomas C. Gannon | tgannon@charlie.usd.edu | U of SoDak (Vermillion) |
------------------------------- _-^-_ -------------------------------
| --If I decide to practice a o )= slight movement from right |
to left . . . or from left { ===} to right . . . it's
| nobody's business but my (=o= own. (_A_Day_for_Eeyore_) |
======================== ^-_=^ ========================"
 






 



Партнерам:
Каталог музыкальных сайтов // добавить сайт

По вопросам сотрудничества:

+38 (044) 229-62-24 | ICQ 344-165-662