Солнце (Элизиум) - слова песен, текст песни, исполнитель, автор песни
 

 

 
 
Отечественые: А  Б  В  Г  Д  Е  Є  Ж  З  И  І  Ї  Й  К  Л  М  Н  О  П  Р  С  Т  У  Ф  Х  Ц  Ч  Ш  Щ  Э  Ю  Я 
Зарубежные исполнители: A  B  C  D  E  F  G  H  I  J  K  L  M  N  O  P  Q  R  S  T  U  V  W  X  Y  Z 
    Интернет-магазин постеров и плакатов!
 

Элизиум "Солнце"

"
Introduction: D F# Hm G A
Вступление2:
D5 F#5 H5 G5 A5
E-|-----------------|-----------------|-----------------|----------------| |-E
H-|-----------------|-----------------|-----------------|----------------| |-H
G-|-----------------|-----------------|-----------------|----------------| |-G
D-|-0-4-2-4-0-4-2-4-|---4-2-4---4-2-4-|---4-2-4---4-2-4-|-5-4-2----5-4-2-|X2|-D
A-|-----------------|-4-------4-------|-2-------2-------|--------0-------| |-A
E-|-----------------|-----------------|-----------------|----------------| |-E

D

1 куплет:

D5
У тебя опять сегодня
F#5
Оказался день неважный,
H5
Твой воздушный замок рухнул,
G5 A5
Утонул корабль бумажный,


D5
По щекам стекают слёзы,
F#5
Твой привычный мир разрушен,
H5
в сердце наступает осень,
G5 A5
город стал уныл и скушен.

Припев:
D5 F#5
Солнце - шарик пунцовый,
H5 G5 A5
Слёзы, мир бестолковый,
D5 F#5
Звёзды ходят кругами,
H5 G5 A5
Слёзы, мир под ногами.

2 куплет:
Может быть не всё так плохо,
Может быть случится чудо,
Может быть ты побываешь
В городах из изумруда,

И внезапною волною
С головой накроет ветром
И закружит, и завертит
В ритме солнечного света.

Припев(в стиле РЕГГИ):
D F#
Солнце - шарик пунцовый,
Hm G A
Слёзы, мир бестолковый,
D F#
Звёзды ходят кругами,
Hm G A
Слёзы, мир под ногами.

Бас для припева после 2 куплета:
D F# Hm G A
G-|---------|---------|---------|---------|-G
D-|-----7---|---------|-----4---|---------|-D
A-|-5-5---5-|-----4---|-2-2---2-|---5---7-|-A
E-|---------|-2-2---2-|---------|-3---5---|-E

Припев:
D5 F#5
Солнце - шарик пунцовый,
H5 G5 A5
Слёзы, мир бестолковый,
D5 F#5
Звёзды ходят кругами,
H5 G5 A5
Слёзы, мир под ногами.
"
 






 



Партнерам:
Каталог музыкальных сайтов // добавить сайт

По вопросам сотрудничества:

+38 (044) 229-62-24 | ICQ 344-165-662