Субмарина (Разные люди) - слова песен, текст песни, исполнитель, автор песни
 

 

 
 
Отечественые: А  Б  В  Г  Д  Е  Є  Ж  З  И  І  Ї  Й  К  Л  М  Н  О  П  Р  С  Т  У  Ф  Х  Ц  Ч  Ш  Щ  Э  Ю  Я 
Зарубежные исполнители: A  B  C  D  E  F  G  H  I  J  K  L  M  N  O  P  Q  R  S  T  U  V  W  X  Y  Z 
    Интернет-магазин постеров и плакатов!
 

Разные люди "Субмарина"

"
Это играется на аккордеоне, но за отсутствием такового, подобрал на гитаре. Табы
Разделены по строчкам: (n) строка табов соответсвует (n) строке
текста
Итак первая строка (1)
E||-----------------------0--1--0-----||
B||--0--1--0--------3--3-----------1--||
G||-----------2--2--------------------||
D||-----------------------------------||
A||-----------------------------------||
E||-----------------------------------||

(2):
E||--------------------------------||
B||--0--1--0--------3--3--3--4--5--||<- в конце можно просто 3s5
G||-----------2--2-----------------||
D||--------------------------------||
A||--------------------------------||
E||--------------------------------||

(3)=(1) - третья строка как первая (см. по аккордам)

(4):
E||----------------------------0--0-----||
B||--0--1--0-------------1--1-----------||
G||-----------2--2--2--2-------------2v-||<- v = вибрато
D||-------------------------------------||
A||-------------------------------------||
E||-------------------------------------||

В оригинале все это играется в проигрыше и немного сложнее. В таком варианте - можно играть на второй гитаре и во время куплета(собственно для чего и нужна нумерация по строкам). Текст и аккорды, что прислал Х.З.:

Am Dm Am
(1)Лежит на грунте наша субмарина,
Dm E E7
(2)Зарывшись в ил по самый перископ,
Am Dm Am
(3)Всё оттого, что часовая мина,
Dm E
(4)Из лодки сделала подводный братский гроб..

припев
Am Dm Am
Над нами ласковое море
Dm E
И с двух сторон полоски берегов,
Am Dm Am
Осталась песня о просторе
Am Dm E Am
И воздуху всего на семь часов...

Радист кричит: "спасите наши души",
Сквозь толщи вод летит последний стон,
А тишина всё глушит, давит в уши,
И как в молчании страшен Пентагон..

припев

Продуты полностью балластные цистерны,
Но субмарина с места ни на фут,
Ну, всё конец, а на земле ,наверно,
Уже забыли, как нас всех зовут...

припев

Повторение 1-ого куплета

Все! Если есть предложения - пишите.
"
 

Фото альбомов - Разные люди

Фото альбома Разные люди. Мазохизм Фото альбома Живая коллекция. Разные люди Фото альбома Разные люди. 1992 Фото альбома Разные Люди. Насрать! Фото альбома Разные люди. Разные песни Фото альбома Разные люди. Мазохизм Фото альбома Разные люди. Дезертиры любви Фото альбома Разные люди. Бит Фото альбома Разные люди. Comeback
 






 



Партнерам:
Каталог музыкальных сайтов // добавить сайт

По вопросам сотрудничества:

+38 (044) 229-62-24 | ICQ 344-165-662